Биография     Песни    Фото    Памяти

Аккорды к песне Кати Огонек - Гроза над Коми

Проигрыш
      Am                        Dm                 E                          Am
1|------------------------------------------|--------------------------------------------|
2|----1------- 0 --1--0 ------- 0 ----------|----- 0 ------------- 0 ----1---- 0 --------|
3|-------- 2 -------------- 2  ------------ |---------1----2-----------------------------|
4|------------------------------------- 3 --|-----------------------------------------2--|


      Am                        Dm                 E                              Am
1|------------------------------------------|------------------------------------------|
2|----1------- 0 --1--0 ------- 0 ----------|----- 0 ---3 ---1--- 0 -------------------|
3|-------- 2 --------------  2 --- -------- |-----------------------------2---1----2---|
4|-------------------------------------3 ---|------------------------------------------|


Am
Am
                           Dm
E
E
                    Am

Am
Am
A7               Dm
Dm
Am
E                      Am

Припев:

A            Dm   E7         Am
A            Dm   G       C
A           Dm  E7         Am  
Am         Dm   E7     Am  


Припев. 2 раза.
 
© 2007-2018. Катя Огонек сайт памяти